HTML

Original Music Movie Music Season Four Music Forum Season Three Music Share Your Music Season Two Music About Season One Music News

Title Theme Melody Tab


Print Tab

E|---2---5---2---0---5----------0------------------------------0---
B|--------------------------3-------3---2----------0---2---3-------
G|------------------------------------------2----------------------
D|-----------------------------------------------------------------
A|-----------------------------------------------------------------
E|-----------------------------------------------------------------
     My  little  po- ny     My  little  po- ny     Ah---


E|---------------0-------2---2---2---2-------0----------2----0-----
B|---3---2---3-------3-------------------3--------3----------------
G|-----------------------------------------------------------------
D|-----------------------------------------------------------------
A|-----------------------------------------------------------------
E|-----------------------------------------------------------------
     My  little  po- ny  I  used to  won-der what friendship could


E|---------------0-----------0---2---5---5-----2---0-------2---0---
B|---3---2---3-------3---3-----------------------------3-----------
G|-----------------------------------------------------------------
D|-----------------------------------------------------------------
A|-----------------------------------------------------------------
E|-----------------------------------------------------------------
     My  little  po- ny  Un-til you all shared its ma-gic with me


E|---------------2---7---7---5-------0---0---0---0-----0---0-------
B|---3---3---3-------------------3---------------------------------
G|-----------------------------------------------------------------
D|-----------------------------------------------------------------
A|-----------------------------------------------------------------
E|-----------------------------------------------------------------
    Big ad-ven-ture tons of fun  A  beau-ti-ful heart faithful


E|---2---0---------0---2---------------5---7---5-------0---0---0---
B|-------------3-----------3---3---3---------------3---------------
G|-----------------------------------------------------------------
D|-----------------------------------------------------------------
A|-----------------------------------------------------------------
E|-----------------------------------------------------------------
   and strong Sharing kindness its an  ea-sy thing And ma-gic makes


E|---2---7---5---5---2---3----------------0-------2---2---2---2----
B|-------7---5---5---3---5----3---2---3-------3--------------------
G|-----------------------------------------------------------------
D|-----------------------------------------------------------------
A|-----------------------------------------------------------------
E|-----------------------------------------------------------------
    it  all complete You have my  little  po-ny  Did you know you’re


E|---5-------0-------2---5---
B|-------3-------3-------7---
G|-----------------------7---
D|---------------------------
A|---------------------------
E|---------------------------
    all  my  ve-ry  best friends

8 comments:

  1. OMG :'D

    so happy i found this,

    ALREADY GOT THE FIRST TWO LINES DOWN

    ReplyDelete
  2. yay I can kinda play it... now to try and play it faster so it doesn't sound like crap

    ReplyDelete
  3. Fantastic! This is awesome :)
    Now let's get some Ukulele tabs up! :D

    ReplyDelete
  4. if you change the ending to a 3 on the B string i find it is a tiney weeny bit better (pinkie pie face) be aware i may be slightly out of tune

    ReplyDelete
  5. Thank you for this tabs. Finaly, i got something i can play.
    And hello from Russian Bronies!

    ReplyDelete